Un año más – La sonora de Tommy Rey


Intro:  
Solm
-
Rem
-
La7
-
Rem
(2)

|-----------------10-12-10----10-13-13-12-10-9--12-10-|
|-8-10-11-11-8-11----------10-------------------------|
|-----------------------------------------------------|
|-----------------------------------------------------|
|-----------------------------------------------------|
|-----------------------------------------------------|
|-----------------------------------------------------| (2)

Rem
La#

Un año más que se va
Rem
Do

Un año más, cuantos se han ido
Solm
Rem

Un año más que más da
La#
-
La
-
Rem

Cuantos se han ido ya
Rem
La#

Un año más que se va
Rem
Do

Un año más que tú has vivido
Solm
Rem

Un año más que más da
La#
Rem

Si has gozado también has sufrido
La#
Rem

Si has llorado también has reído
La#

Un año más que más da
Solm
-
La
-
Rem

Cuantos se han ido ya


Re
Si7
Mim
La7

Son quince, son veinte, son treinta
Mim
La7
Re

Cuarenta, cincuenta, sesenta?
Si7
Mim
La7

No importa los años que tienes
Mim
La7
Re
-
Si7
-
Mim
-
La7

Es el tiempo el que no se detiene
Re
Si7
Mim
La7

Son quince, son veinte, son treinta
Mim
La7
Re

Cuarenta, cincuenta, sesenta?
Solm
Rem

Un año más que más da
La#
-
La7
-
Rem

Cuantos se han ido ya

Solm
-
Rem
-
La7
-
Rem
(2)

|-----------------10-12-10----10-13-13-12-10-9--12-10-|
|-8-10-11-11-8-11----------10-------------------------|
|-----------------------------------------------------|
|-----------------------------------------------------|
|-----------------------------------------------------|
|-----------------------------------------------------|
|-----------------------------------------------------| (2)


Rem
La#

Un año más que se va
Rem
Do

Un año más, cuantos se han ido
Solm
Rem

Un año más que más da
La#
-
La
-
Rem

Cuantos se han ido ya
Rem
La#

Un año más que se va
Rem
Do

Un año más que tú has vivido
Solm
Rem

Un año más que más da
La#
Rem

Si has gozado también has sufrido
La#
Rem

Si has llorado también has reído
La#

Un año más que más da
Solm
-
La
-
Rem

Cuantos se han ido ya


Re
Si7
Mim
La7

Son quince, son veinte, son treinta
Mim
La7
Re

Cuarenta, cincuenta, sesenta?
Si7
Mim
La7

No importa los años que tienes
Mim
La7
Re
-
Si7
-
Mim
-
La7

Es el tiempo el que no se detiene
Re
Si7
Mim
La7

Son quince, son veinte, son treinta
Mim
La7
Re

Cuarenta, cincuenta, sesenta?
Solm
Rem

Un año más que más da
La#
-
La7
-
Rem

Cuantos se han ido ya
Solm
Rem

Un año más que más da
La#
-
La7
-
Rem

Cuantos se han ido ya