Te quiero – Diablos azules

Título: Te quiero
Autor: Carlos Corales
Intérprete: Diablos azules

“Te quiero” es un tema compuesto por el maestro Carlos Corales y grabado por el grupo nacional “Los Diablos Azules”. La siguiente tablatura está sacada por mí, espero la disfruten y omitan los errores que pueda tener.


||------7-7-9-8-7-9-8-7-9-8-7-----7---------------------------7-7-----7-----7-------------------------|
||-9-10-----------------------8/9---9-8-7-9-8-7-9-8-7---7-7p9-----7p9---7p9---7/9-7-7-7-7-7/9-7-------|
||----------------------------------------------------9-----------------------------------------9-9---|
||----------------------------------------------------------------------------------------------------|
||----------------------------------------------------------------------------------------------------|
||----------------------------------------------------------------------------------------------------|

||------7-7-9-8-7-9-8-7-9-8-7-----7---------------------------7-7-----7-----7-------------------------|
||-9-10-----------------------8/9---9-8-7-9-8-7-9-8-7---7-7p9-----7p9---7p9---7/9-7-7-5-5p7-7/9-7-----|
||----------------------------------------------------9-------------------------------------------9-9-|
||----------------------------------------------------------------------------------------------------|
||----------------------------------------------------------------------------------------------------|
||----------------------------------------------------------------------------------------------------|

||--------7-9-7---------9-12-9--------------------------------7------------14-17-14----14----------------------|
||-7-9-10------------10--------12-10----10-------------7-8-10---10------15----------15----15----15-------------|
||--------------9-11-----------------11----11-9----7/9-------------7-16----------------------16----16----16----|
||----------------------------------------------11----------------------------------------------------17----17-|
||-------------------------------------------------------------------------------------------------------------|
||-------------------------------------------------------------------------------------------------------------|

||---------------------------------------------|
||--------8----8-10-12----12----12----12----12-|
||-7-9-10---10------11-14-13-14-12-14-12-14-11-|
||------------------13----14----12----14----13-|
||---------------------------------------------|
||---------------------------------------------|

||------7-7-9-8-7-9-8-7-9-8-7-----7---------------------------7-7-----7-----7-------------------------|
||-9-10-----------------------8/9---9-8-7-9-8-7-9-8-7---7-7p9-----7p9---7p9---7/9-7-7-5-5p7-7/9-7-----|
||----------------------------------------------------9-------------------------------------------9-9-|
||----------------------------------------------------------------------------------------------------|
||----------------------------------------------------------------------------------------------------|
||----------------------------------------------------------------------------------------------------|

||--------7-9-7---------9-12-9--------------------------------7------------14-17-14----14----------------------|
||-7-9-10------------10--------12-10----10-------------7-8-10---10------15----------15----15----15-------------|
||--------------9-11-----------------11----11-9----7/9-------------7-16----------------------16----16----16----|
||----------------------------------------------11----------------------------------------------------17----17-|
||-------------------------------------------------------------------------------------------------------------|
||-------------------------------------------------------------------------------------------------------------|

||------------------------------------------------|
||--------8----8-10-12----12----12----12----12-13-|
||-7-9-10---10------11-14-13-14-12-14-12-14-11-12-|
||------------------13----14----12----14----13-14-|
||------------------------------------------------|
||------------------------------------------------|

||-------8-8-10-9-8-10-9-8-10-9-8------8--------------------------------8-8------8------8-----------------------------|
||-10-11--------------------------9/10---10-9-8-10-9-8-10-9-8----8-8p10-----8p10---8p10---8/10-8-8-6-6p8-8/10-8-------|
||------------------------------------------------------------10------------------------------------------------10-10-|
||--------------------------------------------------------------------------------------------------------------------|
||--------------------------------------------------------------------------------------------------------------------|
||--------------------------------------------------------------------------------------------------------------------|