Sleepwalk – The Shadows

Título: Sleepwalk
Interprete: The Shadows
Género: Surf rock, Rock instrumental
Año: 1961
Álbum: The Shadows

Info tablatura«Sleep Walk» es una melodía instrumental escrita, grabada y lanzada en 1959 por los hermanos Santo y Johnny Farina, con su tío Mike Dee tocando la batería. La versión a continuación es del grupo The Shadows.
 ||------8-12/15----15---------8-8~-------------------8---------------------------------------------------|
 ||-8-10------------------8-10------8~-6-8-8/9-8--------8-8~-6-8-8/9-8--------------8---------------------|
 ||--------------12~---12------------------------10p9----------------------10p9-9-9---9---------5-5-5-5/4-|
 ||-------------------------------------------------------------------------------------10-7-6-6--6-6-6/5-|
 ||-------------------------------------------------------------------------------------------------------|
 ||-------------------------------------------------------------------------------------------------------|

 ||------8-12/15----------8-8~---------------------8----------------------------------------------------------|
 ||-8-10-------------8-10------8-8~-6-8-8/9-8--------8-8~-6-8-8/9-8--------------8----------------------------|
 ||--------------12~--------------------------10p9----------------------10p9-9-9---9--------5-----5-5-5/4-----|
 ||----------------------------------------------------------------------------------10-7-6---6---6-6-6/5-5p7-|
 ||-----------------------------------------------------------------------------------------------------------|
 ||-----------------------------------------------------------------------------------------------------------|

 ||----------8-8-8-10/11-8-----------------|
 ||-----8-8-9---------------7/8------------|
 ||-5-5-------------------------10-8-------|
 ||----------------------------------10-10-|
 ||----------------------------------------|
 ||----------------------------------------| 

 ||-------8-8-10b11-10b11-10-8---8-8-10/11-10-8--------------------------------|
 ||----10----------------------9----------------8-------8-10p11-10-----8---8---|
 ||-10--------------------------------------------7-8-9------------8-9---9---9-|
 ||----------------------------------------------------------------------------|
 ||----------------------------------------------------------------------------|
 ||----------------------------------------------------------------------------|

 ||----------17-15/17-15-13--------------------------------------------------------|
 ||-------13----------------13----13----13-13-15b16-15b16b15-----------------------|
 ||----14----------------------14----------------------------12-12-12/15-15-12-12~-|
 ||-15-------------------------------15----------------------------12/15-15-12-12~-|
 ||--------------------------------------------------------------------------------|
 ||--------------------------------------------------------------------------------|

 ||-8-8-------------------8--------------------------------------------------15-15-----|
 ||-----8~-6-8-8/9-8--------8~-6-8-8/9-8----------8------------------------------------|
 ||------------------10p9----------------10p9-9-9---9------5--5-5---------12-------12~-|
 ||---------------------------------------------------10-7-6-6--6-5---5-5--------------|
 ||---------------------------------------------------------------5-7------------------|
 ||------------------------------------------------------------------------------------|

 ||------8-8----------------------8----------------------------------------1-4/8---8----8--8--------7m-|
 ||-8-10----8-8-8~-6-8-8/9-8--------8~-6-8-8/9-8----------8--------------1-------8---8-9--9-------8----|
 ||--------------------------10p9----------------10p9-9-9---9----------1---------9--------------9------|
 ||-----------------------------------------------------------10-7---3-----------------------10--------|
 ||----------------------------------------------------------------3-----------------------------------|
 ||----------------------------------------------------------------------------------------------------| 

Escucha el tema: