Romance de amor

Título: Romance de amor
Autor: Anónimo

Comparto la tablatura de esta genial composición “Romance de amor”. Puede tener algunos errores, ya que la saqué a oído y no soy músico.


PRIMERA PARTE
||-7-----7-----7-----|-7-----5-----3-----|-3-----2-----0-----|
||---0-----0-----0---|---0-----0-----0---|---0-----0-----0---|
||-----0-----0-----0-|-----0-----0-----0-|-----0-----0-----0-|
||-------------------|-------------------|-------------------|
||-------------------|-------------------|-------------------|
||-0-----------------|-0-----------------|-0-----------------|

|-0-----3-----7/----|-12----12----12----|-12----10----8-----|
|---0-----0-----0---|---0-----0-----0---|---0-----0-----0---|
|-----0-----0-----0-|-----0-----0-----0-|-----0-----0-----0-|
|-------------------|-------------------|-------------------|
|-------------------|-------------------|-------------------|
|-0-----------------|-0-----------------|-0-----------------|

|-8-----7-----5-----|-5-----7-----8-----|-7-----8-----7-----|
|---5-----5-----5---|---5-----5-----5---|---7-----7-----7---|
|-----5-----5-----5-|-----5-----5-----5-|-----8-----8-----8-|
|-------------------|-------------------|-------------------|
|-0-----------------|-0-----------------|-------------------|
|-------------------|-------------------|-7-----------------|
|-11----8-----7-----|-7-----5-----3-----|-3-----2-----0-----|
|---7-----7-----7---|---0-----0-----0---|---0-----0-----0---|
|-----8-----8-----8-|-----0-----0-----0-|-----0-----0-----0-|
|-------------------|-------------------|-------------------|
|-------------------|-------------------|-------------------|
|-7-----------------|-0-----------------|-0-----------------|
|-2-----2-----2-----|-2-----3-----2-----|-0-----0-----0-----|
|---0-----0-----0---|---0-----0-----0---|---0-----0-----0---|
|-----2-----2-----2-|-----2-----2-----2-|-----0-----0-----0-|
|-------------------|-1-----------------|-2-----------------|
|-2-----------------|-------------------|-------2-----------|
|-------------------|-------------------|-------------3-----|

(2 vueltas)

||-0-----2-----3/----|| ||-----------0-||
||---0-----0-----0---|| ||---------0---||
||-----0-----0-----0-|| ||-------0-----||
||-------------------|| ||-----2-------||
||-------------------|| ||---2---------||
||-0-----------------|| ||-0-----------||

(Fin primera vuelta) (Fin segunda vuelta)


SEGUNDA PARTE

|---4-----4-----4-----|-4-----2-----0-----|-------------------|
|-2---0-----0-----0---|---0-----0-----0---|-5-----4-----4-----|
|-------1-----1-----1-|-----1-----1-----1-|---2-----2-----2---|
|---------------------|-------------------|-----4-----4-----4-|
|---------------------|-------------------|-------------------|
|---0-----------------|-0-----------------|-2-----------------|

|-------------------|-9-----9-----9-----|-9-----11----9-----|
|-4-----3-----4-----|---7-----7-----7---|---7-----7-----7---|
|---2-----2-----2---|-----8-----8-----8-|-----8-----8-----8-|
|-----4-----4-----4-|-------------------|-------------------|
|-------------------|-------------------|-------------------|
|-2-----------------|-7-----------------|-7-----------------|

|-9-----7-----7-----|-7-----9-----11----|-12----12----12----|
|---9-----9-----9---|---9-----9-----9---|---9-----9-----9---|
|-----9-----9-----9-|-----9-----9-----9-|-----9-----9-----9-|
|-------------------|-------------------|-------------------|
|-------------------|-------------------|-------------------|
|-0-----------------|-0-----------------|-0-----------------|

|-12----11----10----|-9-----9-----9-----|-9-----7-----5-----|
|---9-----9-----9---|---5-----5-----5---|---5-----5-----5---|
|-----9-----9-----9-|-----6-----6-----6-|-----6-----6-----6-|
|-------------------|-------------------|-------------------|
|-------------------|-------------------|-------------------|
|-0-----------------|-5-----------------|-5-----------------|


|-4-----4-----4-----|-4-----5-----2-----|-0-----0-----0-----|
|---0-----0-----0---|---0-----0-----0---|---0-----0-----0---|
|-----2-----2-----2-|-----2-----2-----2-|-----1-----1-----1-|
|-------------------|-------------------|-2-----------------|
|-------------------|-------------------|-------2-----------|
|-0-----------------|-2-----------------|-------------4-----|


||-----------0-||
||---------0---||
||-------1-----||
||-----2-------||
||---2---------||
||-0-----------||


(2 vueltas)


||-3/-||
||----||
||----||
||----||
||----||
||----||


(Paso para volver a primera parte)


(Primera parte 1 vuelta)
(H)=Armonico
||-----------0-|| ||-(12)-||
||---------0---|| ||-(12)-||
||-------0-----|| ||-(12)-||
||-----2-------|| ||------||
||---2---------|| ||------||
||-0-----------|| ||------||

(Final)