Rock de la cárcel – Dúo Dinámico

Título: Rock de la cárcel (Jailhouse Rock)
Grupo:Dúo Dinámico
Género:Pop
Año: 1994
Álbum:Viva los 50

Intro: 
Do
-
Do#
(2)

Do
-
Do#

Un día hubo una fiesta aquí en la prisión
Do
-
Do#

la orquesta de los presos empezó a tocar
Do
-
Do#

tocaron rock and roll y todo se animó
Do
-
Do#
Fa#

y el cuate se paró y empezó a cantar el rock


Do#

todo el mundo a bailar,
Sol#
Fa#

todo el mundo en la prision
Do#

corrieron a bailar el rock.


El Gato le sabia dar al saxofón
Guillermo ya le daba duro al trombón
Mario batería se decide a tocar
y toda la cárcel se puso a bailar el rock

todo el mundo bailar
todo el mundo en la prisión
corrieron a bailar el rock.

El 47 dijo al 26
óyeme mi cuate vamos a bailar
párate volando a rocanrolear
que el rock de la cárcel va a comenzar, el rock

todo el mundo bailar
todo el mundo en la prision
corrieron a bailar el rock.


Solo
|-----------9-/12-12-12-12-12\11-9-------------------------|
|------9-11---/12-12-12-12-12\11-9-9-10-11-----------------|
|-9-10-------------------------------------9-10------------|
|--------------------------------------------------8-11-11-|
|-----------------------------------------------11---------|
|----------------------------------------------------------|

|----------------------------------------9-11-12-13-12-13--|
|-----------9p8-------------7p6----------9-12-13-14-13-14--|
|---------------11--------------9-8-9h10-------------------|
|-11p8-9h10--------10p6-7h8--------------------------------|
|----------------------------------------------------------|
|----------------------------------------------------------|


Un amargado no quiso bailar
se fue a un rincón y se puso a llorar
llego el carcelero y le dijo así
el rock de la cárcel es para gozar, el rock

todo el mundo bailar
todo el mundo en la prisión
corrieron a bailar el rock.

El ronco dijo al gordo es mi oportunidad
no hay quien me vea y me puedo escapar
tu haz lo que quieras, pero yo no voy
pues yo no quiero dejar de bailar el rock,

todo el mundo bailar
todo el mundo en la prisión
corrieron a bailar el rock
corrieron a bailar el rock
corrieron a bailar el rock
corrieron a bailar el rock
corrieron a bailar el rock
corrieron a bailar el rock.

Escucha el tema: