Robot, eres formidable

Título: Robot, eres formidable
Serie: Festival de los robots
Género: Dibujos animados, Anime
Año: 1980

 Intro:
||-------------------|
||-------------------|
||-------------------|
||-------------------|
||-0-----0-----0-----|
||---3-0---3-0---3-0-|

||-------------------|
||-------------------|
||-------------------|
||---7-6-4-4-4-4h6-6-|
||---7-7-7-7-7-7---7-|
||-0-----------------| (4 veces)

La

Robot, eres formidable
Mi

robot, siempre luchas por amor

||-------------------|
||-------------------|
||-------------------|
||---7-6-4-4-4-4h6-6-|
||---7-7-7-7-7-7---7-|
||-0-----------------| (2 veces)

La

Cruzando por el universo
Mi

tienes la velocidad de la luz.

||-------------------|
||-------------------|
||-------------------|
||---7-6-4-4-4-4h6-6-|
||---7-7-7-7-7-7---7-|
||-0-----------------| (2 veces)

Re

Cuando encuentras el mal
La
Mi

siempre cambias tu cuerpo a metal

||-------------------|
||-------------------|
||-------------------|
||---7-6-4-4-4-4h6-6-|
||---7-7-7-7-7-7---7-|
||-0-----------------| (2 veces)

Re

tienes armas secretas
La
Si

gigante, no te vencerán.
La

Robot, eres justiciero
Mi

robot, saltas hasta el cielo azul

||-------------------|
||-------------------|
||-------------------|
||---7-6-4-4-4-4h6-6-|
||---7-7-7-7-7-7---7-|
||-0-----------------| (2 veces)

La

Con el movimiento de tus puños
Mi

te conviertes en un gigante robot.

||-------------------|
||-------------------|
||-------------------|
||---7-6-4-4-4-4h6-6-|
||---7-7-7-7-7-7---7-|
||-0-----------------| (2 veces)

Sol
-
La

||-------------------|
||-------------------|
||-------------------|
||-------------------|
||-0-----0-----0-----|
||---3-0---3-0---3-0-|

||-------------------|
||-------------------|
||-------------------|
||---7-6-4-4-4-4h6-6-|
||---7-7-7-7-7-7---7-|
||-0-----------------| (2 veces)

Sol
-
La


||-------------------|
||-------------------|
||-------------------|
||-------------------|
||-0-----0-----0-----|
||---3-0---3-0---3-0-|

Acordes del solo:
Mi
-
La
-
Mi
-
La
-
Mi


Re

Cuando encuentras el mal
La
Mi

siempre cambias tu cuerpo a metal

||-------------------|
||-------------------|
||-------------------|
||---7-6-4-4-4-4h6-6-|
||---7-7-7-7-7-7---7-|
||-0-----------------| (2 veces)

Re

tienes armas secretas
La
Si

gigante, no te vencerán.

Escucha el tema: