Quizás – La Sociedad

Título: Quizás
Grupo: La Sociedad
Año: 1996
Álbum: El camino de los sueños

Punteo intro:
                                                                                 
||-----------------3-2-----------------------5-3-2---------------------3-2-------|
||---2p3-5-3-2---------5-3-2---0p2-3-2-------------5-3---2p3-5-3-2---------5-3-2-|
||-4-----------4-------------2---------4-2-------------4-----------4-------------|
||---------------5-------------------------4-------------------------5-----------|
||-------------------------------------------------------------------------------|
||-------------------------------------------------------------------------------|

Fin intro 1:
|---------------||
|---------------||
|-4-2-2-4-4-2-2-||
|---------------||
|---------------||
|---------------||

Fin intro 2:
|-------------||
|---2-2-5-3-3-||
|-4-----------||
|-------------||
|-------------||
|-------------||


     
Sim
Mim
Me cuesta olvidar tu aliento
Sim
Mim
me cuesta olvidar tu aroma
La
Re
despacio me clavas en el pecho
Sol
Fa#
tus besos de rosa. Amarte fue amar el cielo perderte es la cruz que llevo tan dulce fue el adiós que mi boca aún no te perdona.
Sim
Mim
Quizás te olvides de mí
La
Re
Fa#
quizás alguien borrará mis besos
Sim
Mim
La
quizás quién vive en tu piel, no sé
Re
mas yo nunca te olvido
Fa#
Sol
aún vives dentro mío, y jamás
Fa#
Sim
te podré olvidar. Me cuesta... Quizás...