Quien es la que viene allí – Los tres

Título: Quien es la que viene allí
Grupo: Los tres
Género: Alternativa
Año: 1996
Álbum: MTV Unplugged

 Intro acordes: 

1.-
Si
-
Fa#
-
Si
-
Fa#
-
Si

2.-
Si
-
Mi
-
Fa#
-
Si
-
Fa#
-
Si
-
Mi
-
Fa#
-
Si
-
Fa#
-
Do#
-
Fa#

3-.-
Si
-
Fa#
-
Si
-
Fa#
-
Si


1.-
||-------------11-------------------------------11----------------------|
||-------11-12----12-------12-12----------11-12----12-------12-12-12/14-|
||-11-13-------------13-11-------13-11-13-------------13-11-------------|
||----------------------------------------------------------------------|
||----------------------------------------------------------------------|
||----------------------------------------------------------------------|

||-------------11-------------------14-13-12-------------|
||-------11-12----12-------12-12-------------14-11-14-12-|
||-11-13-------------13-11-------13----------------------|
||-------------------------------------------------------|
||-------------------------------------------------------|
||-------------------------------------------------------|

2.-
||---7-7---------------------------------------------|
||-7-----9-9-7-7---7-7-----------7-7-----------------|
||---------------8-----9-9-8-8-6-----9-9-8-8-6-8p6---|
||-------------------------------------------------9-|
||---------------------------------------------------|
||---------------------------------------------------|

||---7-7--------------------------------------------------|
||-7-----9-9-7-7---7-7-----------/7-7-5-7-7/9-7-9-9/11----|
||---------------8-----9-9-8-8-6-----------------------11-|
||--------------------------------------------------------|
||--------------------------------------------------------|
||--------------------------------------------------------|

3.-
||-----------------------------------------------|
||-----7-9-----7-9-9-8-7-9-7-9-9-8-7-9-7-9-------|
||---8-------8-----------------------------8-6---|
||-9-------9-----------------------------------9-|
||-----------------------------------------------|
||-----------------------------------------------| (2 veces)


Si
Mi
Fa#
Si

Quién es la que viene allí
Fa#

tan bonita y tan gentil
Si

quién es la que viene hacia mí
Si
Mi
Fa#
Si

Es la que esperaba yo
Fa#

dulce nena de mi amor

||---9-------9---9-------9-|
||-6---6-6-6---6---6-6-6---|
||-------------------------|
||-------------------------|
||-------------------------|
||-------------------------|

Do#
Fa#

en mi vida he visto algo mejor

||-6-7- 8- 9-|
||-7-9-10-11-|
||-----------|
||-----------|
||-----------|
||-----------|


Si
Fa#

Esa es mi nena nena dulce y buena, nadie
Si

la puede igualar, ja
Fa#

todo, todo está arreglado
ella me ha aceptado
Si

y nos vamos a casar
Mi

A casar, a casar
Do#
Fa#

señor cura nos preguntará

||-6-7- 8- 9-|
||-7-9-10-11-|
||-----------|
||-----------|
||-----------|
||-----------|

Si
Fa#

Esa es mi nena, nena dulce y buena, nadie
Si

la puede igualar


Solo:
||--------------------------------------------------------------|
||-9-9-9-8-9-8-9-8-9-9-9-7-------9-9-9-8-9-8-9-8-9-9-9----------|
||-------------------------8---------------------------9--------|
||---------------------------9-6-------------------------11-9-8-|
||--------------------------------------------------------------|
||--------------------------------------------------------------|

||-------------------------------------------------7-|
||-9-8-9-8-9-9-9----------8----------------------7---|
||---------------9----------9-10-11-8----------8-----|
||-----------------11-9-8--------------9-6-6-9-------|
||---------------------------------------------------|
||---------------------------------------------------|

||-11----9-9---7-7---6-5-6-6-6-5-4-4-4-4-4-4-4-4-4-|
||----11-----8-----7-------7-7-6-5-5-5-5-5-5-5-5-5-|
||-------------------------------------------------|
||-------------------------------------------------|
||-------------------------------------------------|
||-------------------------------------------------|

||-4-4-5-6-6-6-6-4-4-4-----7---7---7-|
||-5-5-6-7-7-7-7-5-5-5---------------|
||---------------------7-8---8---8---|
||-----------------------------------|
||-----------------------------------|
||-----------------------------------|

||-------------11-------------------------------11----------------------|
||-------11-12----12-------12-12----------11-12----12-------12-12-12/14-|
||-11-13-------------13-11-------13-11-13-------------13-11-------------|
||----------------------------------------------------------------------|
||----------------------------------------------------------------------|
||----------------------------------------------------------------------|

||-------------11-------------------14-13-12-------------|
||-------11-12----12-------12-12-------------14-11-14-12-|
||-11-13-------------13-11-------13----------------------|
||-------------------------------------------------------|
||-------------------------------------------------------|
||-------------------------------------------------------|

Si
Mi
Fa#
Si

Quién es la que viene allí
Fa#

tan bonita y tan gentil
Si

quién es la que viene hacia mí
Si
Mi
Fa#
Si

Es la que esperaba yo
Fa#

dulce nena de mi amor

||---9-------9---7-------7-|
||-6---6-6-6---------------|
||-------------8---8-8-8---|
||-------------------------|
||-------------------------|
||-------------------------|

Do#
Fa#

en mi vida he visto algo mejor

||-6-7- 8- 9-|
||-7-9-10-11-|
||-----------|
||-----------|
||-----------|
||-----------|


Si
Fa#

Esa es mi nena nena dulce y buena, nadie
Si

la puede igualar
Fa#

todo, todo está arreglado
ella me ha aceptado
Si

y nos vamos a casar, ah
Mi

a casar, a casar
Do#
Fa#

señor cura nos preguntará

||-6-7- 8- 9-|
||-7-9-10-11-|
||-----------|
||-----------|
||-----------|
||-----------|

Si
Fa#

Esa es mi nena nena Dulce y buena, nadie
Si

la puede igualar

||-------------------------|
||----------------10-11-12-|
||-11-10-11-12-13----------|
||-------------------------|
||-------------------------|
||-------------------------|

Escucha el tema: