Que puedo hacer – Luis Jara

Título: Que puedo hacer
Interprete: Luis Jara
Año: 1992
Álbum: Un Golpe De Suerte

|---------1-3-4-4/6-6-6-6-3-4-4/6-6-6-6-4/6-6-6-6-3-4-4/6-6-6-6-|
|---1-3-4-------------------------------------------------------|
|-3-------------------------------------------------------------|
|---------------------------------------------------------------|
|---------------------------------------------------------------|
|---------------------------------------------------------------|

|-3h4p3-----------------6-8p6-----------------------------------|
|-------4---------6-8-9-----------------------------------------|
|---------5-5-7-8-----------------------------------------------|
|---------------------------------------------------------------|
|---------------------------------------------------------------|
|---------------------------------------------------------------|


Re#
La#
Al mirarte la primera vez yo conocí el amor
Fam
La#
Re#
tu sonrisa era transparente como el mismo sol
Sol#
La#
Solm
Dom
La ternura que sentí en el fondo de mi corazón por tí
Fa
Sol#
-
La#
me decía que serias siempre siempre para mí
Re#
La#
Pero todo llega todo pasa y asi fue tu amor
Fam
La#
Re#
pasajero de una sola noche y hoy me dice adiós
Sol#
La#
Solm
Dom
La pureza de tus sentimientos solo eran palabras mentiras
Fa
Sol#
pero así es la vida y así son las cosas del amor
La#
Sol
-
Dom
Sol#
No me preguntes otra vez lo que haré
La#
Sol
-
Dom
-
Solm
Dom
ya no te preocupes y vete con él
Fam
-
La#
Yo no sé lo que haré
Re#
Sol#
Que puedo hacer si tu ya no me amas
La#
Re#
puedo llorar y gritar no te vayas
Dom
Fam
Sol
Pero ya están tus maletas cerradas y abiertas tus alas
Re#
de tanto amor
Sol#
La#
Re#
Soledades y sombras mi corazón inundado se queda
Dom
Fam
para llorar tengo tiempo de sobra
La#
Sol#
-
La#
Cuando no estés y me falte la gloria
Re#
sin ti Pero todo llega todo pasa..... No me preguntes otra vez....
La#
-
Si
Yo no sé lo mque haré
Mi
La
Que puedo hacer si tu ya no me amas
Si
Mi
puedo llorar y gritar no te vayas
Do#m
Fa#m
Sol#
Pero ya están tus maletas cerradas y abiertas tus alas
Mi
de tanto amor
La
Si
Mi
Soledades y sombras mi corazón inundado se queda
Do#m
Fa#m
para llorar tengo tiempo de sobra
Si
La
-
Si
Cuando no estés y me falte la gloria
Mi
-
Si
-
Mi
-
La
-
Si
-
Mi
sin tí sin ti