Opening Slum Dunk

Título: Opening Slum Dunk
Serie: Slum Dunk
Género: Dibujos animados, Anime
Año: 1990

 Intro: 
Fa
-
Rem
-
La#
-
Do
-
La#
-
Do
-
La#
-
La
-
Do


||-----------------------------|
||-----------------------------|
||---2-----2-----2-------------|
||-5---5-5---3-5---5-5-3-2-----|
||-------------------------5-3-|
||-----------------------------|

||---------------------------------------|
||---------------------------------------|
||---------------2-2---------------2---2-|
||-----3-3-2-3-5-----5-5-3-3-2-3-5---5---|
||-3-5-----------------------------------|
||---------------------------------------|

||-----------------------------------|
||-----------------------------------|
||---7p5---7p5---7p5---5-----5-------|
||-5-----5-----5-----5---5-5---5-5\3-|
||-----------------------------------|
||-----------------------------------|

Fa
Rem

Brillante resplandor hay aquí
La#

cuando vas corriendo por la ciudad
Lam
Sol
Do

para descansar después de un gran día de práctica
Fa
Rem

y no sé por que razón, no lo sé
La#

yo siento esta atracción por ti
Lam
Do
Fa

nuestras miradas se cruzaron sin control.
Rem

No te irás nunca ya, te amaré
Solm

loco estoy por tu amor, gritaré
La#
Solm
La

el mundo sabrá que viviré loco por ti.

Fa
Rem

Romper esta barrera sin dudarlo
La#
Do

me separa de tu amor
La#
Do

y que todos sepan que me gustas
La#
La

mañana el sol brillará.
Rem
La#

A todos demostremos que no hay nada
Do
Fa

que pudiera separarnos ya
La#
Do
Lam
Rem

sólo pienso en ti yo gritaré
La#
Do
La#

y por ti estoy loco mi amor.

Final:
Do
-
Fa


||-----------------------------------|
||-----------------------------------|
||---7p5---7p5---7p5---5-----5-------|
||-5-----5-----5-----5---5-5---5-5\3-|
||-----------------------------------|
||-----------------------------------|

||-----------------|
||-----------------|
||--0--2--0--0--2--|
||--2--3--2--2--3--|
||--3--3--3--3--3--|
||-----------------|

Escucha el tema: