Opening Digimon

Título: Opening Digimon
Serie: Digimon
Género: Dibujos animados, Anime
Año: 1997

Intro: 
Mi
-
Re
-
La
(2 veces)

Mi
Re
-
La
Mi
Re
-
La

||------------------------------|
||-9-9-9-7---7-10-9-9-9-7---7---|
||---------9--------------9---7-|
||------------------------------|
||------------------------------|
||------------------------------| (2 veces)


Mi

Solamente quiero amarte
Sol#m

Y todo mi calor brindarte
La

Te haré olvidar
Do
Re
Mi

Esas penas que te hacen mal

||---------------------------|
||---------------------------|
||---------------------------|
||---5h6---5h6-----4---5---6-|
||-7-----7-----7-7---7---7---|
||---------------------------|

Mi

Hay que dar el sentimiento
Sol#m

Y cada momento vivirlo
La

Te haré olvidar
Do
Re
Mi

Esas penas que te hacen mal

||---------------------------|
||---------------------------|
||---------------------------|
||---5h6---5h6-----4---5---6-|
||-7-----7-----7-7---7---7---|
||---------------------------|


Do#m
-
Sol#m

Con el amor
La
Mi

Se puede siempre alcanzar lo mejor
Do#m
-
Sol#m

Con el amor
La
Si
Do
Re
-
Si

Los sueños que tengas se van a cumplir

||------------|
||------------|
||-4-2----2h4-|
||-----4m-----|
||------------|
||------------|


Mi
Si
Do#m

Si tu lo deseas puedes volar
Sol#m
La
Sol#m
Do#m

Solo tienes que confiar mucho en ti, seguir
La
Si

Puedes contar conmigo te doy todo mi apoyo
Mi
Si
Do#m

Si tu lo deseas puedes volar
Sol#m
La

Si tu quieres el cielo alcanzar
Sol#m
Do#m

Y las estrellas tocar
Do
-
Re
-
Mi

Digimon


Final:

Mi
Re
-
La
Mi
Re
-
La

||------------------------------|
||-9-9-9-7---7-10-9-9-9-7---7---|
||---------9--------------9---7-|
||------------------------------|
||------------------------------|
||------------------------------|

Mi
Re
-
La
Mi
Re
-
Do
-
Si

||------------------------------|
||-9-9-9-7---7-10-9-9-9-7---7---|
||---------9--------------9---7-|
||------------------------------|
||------------------------------|
||------------------------------|

Mi

||------------|
||-9-10-12----|
||---------9-|
||------------|
||------------|
||------------|

Escucha el tema: