Mentalidad televisiva – Los Prisioneros

Título: Mentalidad televisiva
Grupo: Los prisioneros
Género: Rock
Año: 1984
Álbum: La voz de los ’80

Sol5
Si5

Ella es mucho mas normal que yo
Sol5
Si5

modelo de nuestra generación
La5
Do5
La5
Re5

¿Como llego a mi? ¿fue la casualidad?

Sol5
Si5
(
Re5
-
Re5
-
Re5
-
Do5
-
Si5
-
La5
-
Sol5
)
como es normal nos juramos amor
Sol5
Si5
(
Re5
-
Re5
-
Re5
-
Do5
-
Si5
-
La5
)
eterno, invariable y a todo color
La5
Do5
Si5
Mi5

ella se imagino que yo era un campeón
Do5
Si5
Mi5
Do5
Si5
Re5

un eterno matador insensible seductor

Sol5
Si5

Cuando vio lo que yo empezaba a sentir
Sol5
Si5

mi entrega fácil la empezó a aburrir
La5
Do5
Si5
Mi5

¿adonde esta el galán de la televisión?
Do5
Si5
Mi5
Do5
Si5
Re5

¿adonde la destrucción? ¿donde el varón?


Sol5
Si5
La5
Do5
Re5
Sol5
(
La5
-
Do5
)
Ella tiene mentalidad televisiva (4)


Sol5
Si5

Yo no portaba armas de ninguna especie
Sol5
Si5

no daba vueltas autos ni chocaba motos
La5
Do5
La5
Re5

tenia corazón y también sesos
Sol5
Si5
(
Re5
-
Re5
-
Re5
-
Do5
-
Si5
-
La5
-
Sol5
)
ella era dada a las frases cliché
Sol5
Si5
(
Re5
-
Re5
-
Re5
-
Do5
-
Si5
-
La5
)
hablaba de todo con total madurez
La5
Do5
Si5
Mi5

y la imaginación si es que la tuvo ya la perdió
Do5
Si5
Mi5
Do5
Si5
Re5

y en su lugar instalo un videotape


Sol5
Si5
La5
Do5
Re5

Ella tiene mentalidad televisiva… (4)
La5
-
Do5
-
Re5
-
La5
-
Do5
-
Re5

mentalidad, mentalidad


Si5
La5
Do5
Mi5

Búscate un macho recio que te haga sufrir
Si5
La5
Do5
Mi5

búscate un tipo a la moda y experto en mentir
Si5
La5
Do5
Mi5

tipos como yo son bichos raros para ti
Si5
La5
Do5
Re5

tu tienes la mentalidad de televisión
Mi5

de tu generación


Solo:
|---------------------------------------------------------------------|
|-----------------10\9-9/10\9-7-------------------7---7b8-------------|
|-----6-7-6---6-9---------------9-----6-7-6---6-9---6-6b7-------------|
|-7-7-------9---------------------7-7-------9-------------------------|
|---------------------------------------------------------------------|
|---------------------------------------------------------------------|

|-7b8b7-5---5-7b8b7-5-------------------------------------------------|
|---------7-----------7-5---------------------------------------------|
|---------------------------------------------------------------------|
|---------------------------------------------------------------------|
|---------------------------------------------------------------------|
|---------------------------------------------------------------------|
T (7 veces)
|-----------------------------------------5/7-5-4-5p4-5---------------|
|-----------------7---7b8--7-5-2------7b9-----------------------------|
|-----6-7-6---6-9---6-6b7---------------------------------------------|
|-7-7-------9---------------------------------------------------------|
|---------------------------------------------------------------------|
|---------------------------------------------------------------------|

|-12-10----10----------------------------------7---7---7-7---7---7----|
|-------12----12-10-9-10-9----9----------7/-10---9---9-----9---9---10-|
|--------------------------11---11-6-7-9------------------------------|
|---------------------------------------------------------------------|
|---------------------------------------------------------------------|
|---------------------------------------------------------------------|


La5
-
Do#5
-
La5
-
Do#5
-
Si5
-
Re5
-
Si5
-
Mi5

La5
-
Do#5
-
La5
-
Do#5
-
Si5
-
Re5
-
Do#5
-
Si5
-
Re5
-
Do#5
-
Re5
-
Re#5
-
Mi5



La5
Do#5
Si5
Re5
Mi5
La5

Ella tiene mentalidad televisiva…

Escucha el tema: