Loco (tu forma de ser) – Los auténticos decadentes

Título: Loco (tu forma de ser)
Interprete: Los auténticos decadentes
Año: 1989
Álbum: El milagro argentino

Intro guitarra:
|-------------------------------------------------------|
|-------------------------------------------------------|
|-----2-4-4b6-4b6-4b6b4-2---2---4p2-----------------2---|
|-2h4---------------------4---4-----4-2-4-2-4-2-2-4---4-|
|-------------------------------------------------------|
|-------------------------------------------------------|

|-------------------------------12------12------12------12-9-------------|
|-------5---7-5--------------10------10------10------10------12-10h12p10-|
|-4-4/6---6-----/6-6-6-4-6/9-------9-------9-------9---------------------|
|------------------------------------------------------------------------|
|------------------------------------------------------------------------|
|------------------------------------------------------------------------|

Intro Saxo
|-------------------------------------------------------------------------|
|-----------2-2-------2-2-2-5-3-2-2h3p2-------2---2h3p2-------2-3-5p2-----|
|-2-2-2-4-2-----4-2-4-------------------4-4-4---4-------4-4-4---------4p2-|
|-------------------------------------------------------------------------|
|-------------------------------------------------------------------------|
|-------------------------------------------------------------------------|


   
La
Te vi llegar del brazo de un amigo
Do#m
cuando entraste al bar y te caíste al piso, (
Dom
)
Sim
me tiraste el pingüino, me tiraste el sifón,
Mi
estallaron los vidrios de mi corazón. Te vi bailar, brillando con tu ausencia sin sentir piedad chocando con las mesas. Te burlaste de todos, te reíste de mí tus amigos escaparon de vos.
La
Y a mi me volvió loco tu forma de ser,
Do#m
a mi me vuelve loco tu forma de ser.
Sim
Tu egoísmo y tu soledad
Mi
son estrellas en la noche de la mediocridad. Me vuelve loco tu forma de ser, a mi me volvió loco tu forma de ser. Tu egoísmo y tu soledad son joyas en el barro de la mediocridad. Solo 1: |-12-12-12\10-10-10\ 9- 9- 9 -9-10- 9-10-/12-12-12-12-12-14-12-| |-14-14-14\12-12-12\10-10-10-10-12-10-12-/14-14-14-14-14-14-14-| |--------------------------------------------------------------| |--------------------------------------------------------------| |--------------------------------------------------------------| |--------------------------------------------------------------| |-12-12-11-10-10-10- 9-7-7-7-5-4-4-4-5-5-5-7-| |-14-14-13-12-12-12-10-9-9-9-7-5-5-5-7-7-7-9-| |--------------------------------------------| |--------------------------------------------| |--------------------------------------------| |--------------------------------------------| Solo 2: |-------------------------5-4---------------| |-----------------------------5-5/7-7-7\5-5-| |---2-4b6-6-6b4-2-4b6b4-2-------------------| |-2-----------------------------------------| |-------------------------------------------| |-------------------------------------------| |----------------------------------------| |-----5----------------------------------| |-5h6---6-6/7-7-7-7\6-4------------------| |-----------------------/2-2-2-/4-4-4-/6-| |----------------------------------------| |----------------------------------------| Y a mi me volvió loco tu forma de ser, a mi me vuelve loco tu forma de ser. Tu egoísmo y tu soledad son estrellas en la noche de la mediocridad. Me vuelve loco tu forma de ser, a mi me volvió loco tu forma de ser. Tu egoísmo y tu soledad son joyas en el barro de la mediocridad. Solo saxo...