La consentida – Jaime Atria

Título: La consentida
Grupo: Jaime Atria
Género: FolkloreFolklore chileno
Año: 1961

Intro:
 ||-12-12-11-12-10-12-8-12----12----12-------10-9-10-9-10-13-12-10----|
 ||------------------------12----10----9---9-----------------------13-|
 ||--------------------------------------9----------------------------|
 ||-------------------------------------------------------------------|
 ||--------------------------------------7----------------------------|
 ||-------------------------------------------------------------------|

 ||-------------12-10----12-10-------10-9-10-9-10-13-12-10-------|
 ||-12-13-12-13-------13-------13-12-----------------------13-13-|
 ||--------------------------------------------------------------|
 ||--------------------------------------------------------------|
 ||--------------------------------------------------------------|
 ||--------------------------------------------------------------|

 ||-5-5-5-5-5-----5-3-----3-1-----1----------12------13-12-10-12-10----|
 ||-------------5-------3-------1-------9-12----10-9----------------13-|
 ||-----------5-------4-------2-----8-9--------------------------------|
 ||--------------------------------------------------------------------|
 ||--------------------------------------------------------------------|
 ||--------------------------------------------------------------------|


 
La7
Rem
Déjame que te llame
Sol
Do
la consentida
Lam
-
Sol
-
Fa
-
Mi7
porque todo consigues,
Lam
mi vida, con tu porfía
Lam
-
Sol
-
Fa
-
Mi7
porque todo consigues,
Lam
mi vida, con tu porfía
La7
Rem
Primero tu cariño
Sol
Do
mi idolatría
Lam
-
Sol
-
Fa
-
Mi7
y después mi pasión, mi vida,
Lam
de noche y día
Lam
-
Sol
-
Fa
-
Mi7
déjame que te llame, mi vida,
Lam
la consentida
La7
Rem
Eres la consentida
Sol
Do
amor de amores
Lam
-
Sol
-
Fa
-
Mi7
que todito te doy, mi vida,
Lam
pa' que no llores
Lam
-
Sol
-
Fa
-
Mi7
eres la consentida, mi vida
Lam
amor de amores
La7
Rem
Pa' que no llores, si
Sol
Do
yo te lo digo
Lam
-
Sol
-
Fa
-
Mi7
donde quiera que vayas,
Lam
mi vida, yo iré contigo
La7
Rem
Eres la consentida, mi vida,
Sol
Do
de noche y día
Lam
Mi7
ah, ah
Lam
ah ah

Escucha el tema: