Flor Pálida – Marc Anthony

Título: Flor Pálida
Cantante: Marc Anthony
Género: Pop
Año: 2013
Álbum: 3.0

 Intro: 
Sol
-
Re
-
Lam
-
Mim
(2 veces)

||-3-3-3-3-5-7-3-5-----5-5-5-5-7-8-5-7---|
||-3-3-3-3-3-3-3-3-3---5-5-5-5-5-5-5-8-8-|
||-------------------2-----------------9-|
||---------------------------------------|
||---------------------------------------|
||---------------------------------------| (2 veces)

Sol
Re

Hallé una flor un día en el camino
Lam
Mim

Que apareció marchita y deshojada
Do
Sol

Ya casi pálida ahogada en un suspiro
Lam
Re

Me la llevé a mi jardín para cuidarla
Sol
Re

Aquella flor de pétalos dormidos
Lam
Mim

A la que cuido hoy con toda el alma
Do
Sol

Recuperó el color que había perdido
Lam
Re
(
Sol
-
Re
-
Mim
)
Porque encontró un cuidador que la regara

Mim
Re

Le fui poniendo un poquito de amor
Mim
Re

La fui abrigando en mi alma
Do
Sol

Y en el invierno le daba calor
La
Re
(
Sol
-
Re
-
Mim
)
Para que no se dañara
Mim
Re

De aquella flor hoy el dueño soy yo
Mim
Re

Y he prometido cuidarla
Do
Sol

Para que nadie le robe el color
Lam
Re
Sol

Para que nunca se vaya

Intermedio:
Sol
-
Re
-
Lam
-
Mim
(2 veces)

||-3-3-3-3-5-7-3-5-----5-5-5-5-7-8-5-7---|
||-3-3-3-3-3-3-3-3-3---5-5-5-5-5-5-5-8-8-|
||-------------------2-----------------9-|
||---------------------------------------|
||---------------------------------------|
||---------------------------------------| (2 veces)

Sol
Re

De aquella flor surgieron tantas cosas
Lam
Mim

Nació el amor que ya se había perdido
Do
Sol

Y con la luz del sol se fue la sombra
Lam
Re
Mim
(
Sol
-
Re
-
Mim
)
Y con la sombra la distancia y el olvido

Mim
Re

Le fui poniendo un poquito de amor
Mim
Re

La fui abrigando en mi alma
Do
Sol

Y en el invierno le daba calor
La
Re

Para que no se dañara
Mim
Re

De aquella flor hoy el dueño soy yo
Mim
Re

Y he prometido cuidarla
Do
Sol

Para que siempre este cerca de mi
Lam
Re
Sol

Para que nunca se vaya

Sol
-
Do
-
Re

Sol
(
Do
-
Re
)
Para que nunca se vaya (4)
Para que nunca se vaya
Sol
Do
Re

Le fui brindado cariño un poquito de amor
Para que nunca se vaya
Sol
Do
Re

Y en el invierno llenó mi jardín de color
Para que nunca se vaya
Sol
Do
Re

Ay! Cuando la vi, me enamoré y me la llevé, me la llevé
Sol
Do
-
Re
Sol
Do
-
Re
-
Sol
Do
-
Re

¡Ave María! ¡Pto. Rico! ¡Ja,ja! ¡Ataca Sergio! ¡Uy!
Sol
-
Do
-
Re

Eo eo eooo
Eo eo eooo
¡Esto sigue!
Eo eo eooo
Eo eo eooo

Escucha el tema: