Díselo a la lluvia – Clan 91

Título: Díselo a la lluvia
Grupo: Clan 91
Género: Pop, Nueva Ola
Año: 1967
Álbum: El Sonido Joven Del Clan 91

 Intro:

||--11--9--7-----------|
||------------7--------|
||--11--9--8--8--9--8--|
||---------------9--9--|
||---------------------|
||---------------------|

Si
Do#m
Fa#

Yo sé muy bien que hay algo que te hace llorar
Si
Do#m
Fa#

Pero en la lluvia te podrás desahogar
Sim7
Mi
Do#m
Fa#

Porque tan solo ella tu llorar comprenderá

Si

Ve y díselo que te consolará
Do#m
Fa#

Tu pena llevará, muy pronto ven
Si

Ve y díselo

||--11--9--7-----------|
||------------7--------|
||--11--9--8--8--9--8--|
||---------------9--9--|
||---------------------|
||---------------------|

Si
Do#m
Fa#

Que no escuchas que te llama sin cesar
Si
Do#m
Fa#

Y te repite que la vayas a encontrar
Sim7
Mi
Do#m
Fa#

Porque tan solo ella tu llorar comprenderá

Si

Ve y díselo que te consolará
Do#m
Fa#

Tu pena llevará, muy pronto ven
Si

Ve y díselo

Sim7

Corre pronto, yeah
Corre pronto, yeah

Fa#

Corre pronto, yeah, yeah, yeah, yeah, yeah.

Intermedio acordes:
Sim
-
La
-
Sol
-
Fa#


||-----7-----7-----|
||-5b7---7b5---5-5-|
||-----------------|
||-----------------|
||-----------------|
||-----------------|

||-------------------------------------------|
||-------------------------------------------|
||-------------------------------------------|
||-------------------------------------------|
||-5-5---4-5-5---4-5---4-5---4-5---4-5---4---|
||-----7-------7-----7-----7-----7-----7---7-| (2 veces)

Si

Ve y díselo que te consolará
Do#m
Fa#

Tu pena llevará, muy pronto ven
Si

Ve y díselo

||--11--9--7-----------|
||------------7--------|
||--11--9--8--8--9--8--|
||---------------9--9--|
||---------------------|
||---------------------|

Si

Ah..Que te consolará
Do#m
Fa#

Tu pena llevará, muy pronto ven
Si

Ve y díselo

||--11--9--7-----------|
||------------7--------|
||--11--9--8--8--9--8--|
||---------------9--9--|
||---------------------|
||---------------------|

Si

Ah..Que te consolará
Do#m
Fa#

Tu pena llevará, muy pronto ven
Si

Ve y díselo

||--11--9--7-----------|
||------------7--------|
||--11--9--8--8--9--8--|
||---------------9--9--|
||---------------------|
||---------------------|

Si

Ah..Que te consolará
Do#m
Fa#

Tu pena llevará, muy pronto ven
Si

Ve y díselo

Escucha el tema: