Despacito – Pedro Fernandez

Título: Despacito
Cantante: Pedro Fernandez
Género: Pop
Año: 1997
Álbum: Un mundo raro

 Intro: 
Do
-
Fa
-
Sol
-
Do
-
Fa
-
Sol
-
Re#
-
Sol#
-
La#
-
Re#
-
Sol#
-
La#
-
Sol4
-
Sol


||----------0-----------------|
||-1-3-0-1--1-3-1-3-0-1---5-3-|
||-0-0-0-0----0-2-2-2-2---4-4-|
||-2-------2----3-------5-----|
||----------------------------|
||----------------------------| (2 veces)

||-----------3-----------------| ||-3-3-3-|
||-4-6-3-4---4-6-4-6---4---8-6-| ||-3-3-3-|
||-3-3-3-3-----3-5-5-7-----7-7-| ||-5-5-4-|
||-5-------5-----6---6-6-8-----| ||-------|
||-----------------------------| ||-------|
||-----------------------------| (2 veces) ||-------|

Do
Sol
Fa
Do

Despacito muy despacito se fue metiendo en mi corazón
Fam
Do
Sol
Do

con mentiras y cariñitos la fui queriendo con mucho amor
Despacito muy despacito crecía la llama de mi pasión
y sabiendo que no era buena le di mi vida sin condición

Do7

Fa
Fa5+
Fa6
-
Fa5+
-
Fa

Y hoy que quiero dejarla de amar
Sol
Do

no responden las fuerzas de mi alma
Sol

ya no se donde voy a acabar
Fa
Sol
Do

pero yo ya no puedo olvidarla

Intermedio:
Re#
-
Sol#
-
La#
-
Re#
-
Sol#
-
La#
-
Sol4
-
Sol


Despacito muy despacito me dijo cosas que nunca oí
me enseño lo que tantas veces con otros labios no comprendí
Pero todo, todo se acaba la dicha grande también se va
y nos deja nomas recuerdos recuerdos de ella que no vendrán

Y hoy que quiero dejarla de amar…

Final:
Do
-
Fa
-
Sol
-
Do
-
Fa
-
Sol
-
Do

Escucha el tema: