Cielo Market – La Ley

Título: Cielo Market
Grupo: La Ley
Género: Alternativa
Año: 1995
Álbum: Invisible

 Intro 1: (2 veces)

||-------------------0-------0-------------------|
||---0-----0-----3-----3---3---3-----0-----0-----|
||-----2-----2-----0-------------2-----2-----2---|
||-------2---------------0---------------2-----2-|
||-0-----------2-------------------0-------------|
||-----------------------------------------------|

Intro 2:
La5
-
Si5
-
Do5
-
Re5
(2)

La5
Sol5
Re5
La5

Algunos disfrazan sus crudas ganas de figurar
Sol5
Re5
La5

corazones ardientes, estrellas calientes por papel
Do5
-
Re5
La5

por mientras se come tu imagen algún sucio magazine
Do5
Re5
-
La5

que estampa en tu frente un precio de moda

La5
Si5
-
Do5

Cielo me has marcado
Re5

como la estrella que logra ver su estela
La5
Si5
-
Do5

cielo me has mandado
Re5

a sonreír al morir.

Despierten lectores de ese trance que los masturba
mientras leen farándula la A.M.I.A. explotó.
Los rumores de mil amores
son sólo una mentira que se vende bien.
Y si existe algo cierto,
a quién le importa.

Cielo me has marcado
como la estrella que logra ver su estela
me has petrificado
como una estatua con una linda cara.
Cielo me has ordenado
a ser verdugo de mi propia cabeza
cielo me has mandado
a sonreír al morir.

Solo 1: (2 veces)
||-------------------0-------0-------------------|
||---0-----0-----3-----3---3---3-----0-----0-----|
||-----2-----2-----0-------------2-----2-----2---|
||-------2---------------0---------------2-----2-|
||-0-----------2-------------------0-------------|
||-----------------------------------------------|

Solo 2: (2 veces)
||-10/12-12-12-14-12-10-10-10-10-10-10-10-10-10-10-12-10-12\5-|
||------------------------------------------------------------|
||------------------------------------------------------------|
||------------------------------------------------------------|
||------------------------------------------------------------|
||------------------------------------------------------------|

Cielo me has marcado
como la estrella que logra ver su estela
me has petrificado
como una estatua con una linda cara.
Cielo me has ordenado
a ser verdugo de mi propia cabeza
La5
Si5
-
Do5

cielo me has mandado
Re5

a sonreír al morir.
Do5
-
Re5
-
Do5
-
La5

Escucha el tema: