Chile Lindo – Los huasos quincheros

Título: Chile Lindo
Grupo: Los huasos quincheros
Género: FolkloreFolklore chileno
Año: 1968

Intro:
 ||------------------------8-10-11-10-10-8---------10-11-13-10-11-13-11-11-10-|
 ||--------8-10-11-8-10-11-----------------9-10-12----------------------------|
 ||-7-8-10--------------------------------------------------------------------|
 ||---------------------------------------------------------------------------|
 ||---------------------------------------------------------------------------|
 ||---------------------------------------------------------------------------|

 ||-------------------------------------------11----15-|
 ||-11-11-10----10-11-12-13-11-10-11-10----------11----|
 ||----------13-------------------------13-12----------|
 ||----------------------------------------------------|
 ||----------------------------------------------------|
 ||----------------------------------------------------|

 ||-------------------------------------------10----13-|
 ||-11-11-10----10-11-12-13-11-10-11-10----------11----|
 ||----------13-------------------------12-10----------|
 ||----------------------------------------------------|
 ||----------------------------------------------------|
 ||----------------------------------------------------|

 ||------------------------------------------------10-11-10-11-12-13-12-11-10----------------------------|
 ||------------------------10-11-10-11-12-13-12-13----------------------------13-11-13-11-10-------------|
 ||-10-10-9-10-11-12-11-12-------------------------------------------------------------------12-10-------|
 ||------------------------------------------------------------------------------------------------13-12-|
 ||------------------------------------------------------------------------------------------------------|
 ||------------------------------------------------------------------------------------------------------|

 
La#
Ayúdeme usted compadre
Fa
Pa gritar un viva Chile
La#
La tierra de los zorzales y de los rojos copihues
La#7
Re#
Con su cordillera blanca pucha que es linda mi tierra
Fa
La#
Fa
La#
-
La#7
No hay otra que se la iguale aunque la busquen con vela
Re#
La#
Fa
La#
No hay otra que se la iguale aunque la busquen con vela
Fa
La#
Chile, Chile mío como te querré
Fa
La#
Que si por vos me pidieran la vida de la daré
Fa
La#
Chile, Chile lindo, lindo como un sol
La#7
Re#
Fa
La#
Aquí mismito te dejo echo un copihue mi corazón
La#
Fa
Afírmense las espuelas y eche la manta pal lao
La#
Y mándese aquí una cueca de esas pa morir parao
La#7
Re#
Que canten con las guitarras hasta los sauces llorones
Fa
La#
Fa
La#
-
La#7
Que en Chile no llora naiden porque hay puros corazones
Re#
La#
Fa
La#
Que en Chile no llora naiden porque hay puros corazones
Fa
La#
Chile, Chile mío como te querré
Fa
La#
Que si por vos me pidieran la vida de la daré
Fa
La#
Chile, Chile lindo, lindo como un sol
La#7
Re#
Fa
La#
Aquí mismito te dejo echo un copihue mi corazón

Escucha el tema: