Bachata rosa – Juan Luis Guerra

Título: Bachata rosa
Cantante: Juan Luis Guerra
Género: Bachata
Año: 1990
Álbum: Bachata rosa

 Intro: 
Sol
-
Re
-
Mim
-
Sim
-
Do
-
Re
(2 veces)

Sol
Re
Mim
Sim

Te regalo una rosa la encontré en el camino
Do
Sol
La7
Re

no sé si está desnuda o tiene un solo vestido
no, no lo sé
Sol
Re
Mim
Sim

Si la riega el verano o se embriaga de olvido
Do
Sol
La7
Re

si alguna vez fue amada o tiene amores escondidos

Do
Sim
Mim

Ay, ay, ay, ay, amor
Do
Sim
Mim

eres la rosa que me da calor
Do
Sim
Mim

eres el sueño de mi soledad
La4
-
La

un letargo de azul
Do
Re

un eclipse de mar, pero
Do
Sim
Mim

ay, ay ay ay, amor
Do
Sim
Mim

yo soy satélite y tú eres mi sol
Do
Sim
Mim

un universo de agua mineral
La4
-
La

un espacio de luz
Do
Re

que sólo llenas tú, ay, ay, ay

Intermedio: Sol -
Re
-
Mim
-
Sim
-
Do
-
Re
(2 veces)

Sol
Re
Mim
Sim

Te regalo mis manos mis párpados caídos
Do
Sol
La7
Re

el beso más profundo el que se ahoga en un gemido, oh
Sol
Re
Mim
Sim

Te regalo un otoño, un día entre abril y junio
Do
Sol
La7
Re

un rayo de ilusiones, un corazón al desnudo

Do
Sim
Mim

Ay, ay, ay, ay, amor
Do
Sim
Mim

eres la rosa que me da calor
Do
Sim
Mim

eres el sueño de mi soledad
La4
-
La

un letargo de azul
Do
Re

un eclipse de mar, vida
Do
Sim
Mim

ay, ay ay ay, amor
Do
Sim
Mim

yo soy satélite y tú eres mi sol
Do
Sim
Mim

un universo de agua mineral
La4
-
La

un espacio de luz
Do
Re

que sólo llenas tú, ay, ay, ay

Intermedio silvido:
Mim
-
Sim
-
Mim
-
Sim
-
Mim
-
Sim
-
La
-
Re


||--------7-------------/7--------/12-10-|
||-/8-10----10-7---8-10----10-8-7--------|
||---------------9-----------------------|
||---------------------------------------|
||---------------------------------------|
||---------------------------------------|

||-/7-----/7-----/7--------------/7-----------/10-\7----7-8h7---|
||----8------8------8-10-7-----8----10-8-10-8--------10---------|
||------9------9-----------9-9----------------------------------|
||--------------------------------------------------------------|
||--------------------------------------------------------------|
||--------------------------------------------------------------|

Do
Sim
Mim

Ay, ay, ay, ay, amor
Do
Sim
Mim

eres la rosa que me da calor
Do
Sim
Mim

eres el sueño de mi soledad
La4
-
La

un letargo de azul
Do
Re

un eclipse de mar, pero
Do
Sim
Mim

ay, ay ay ay, amor
Do
Sim
Mim

yo soy satélite y tú eres mi sol
Do
Sim
Mim

un universo de agua mineral
La4
-
La

un espacio de luz
Do
Re

que sólo llenas tú, ay, ay, ay

Pre Final:
Sol
-
Re
-
Mim
-
Sim
-
Do
-
Re
(4 veces)

Final:
Do
-
Sol
-
Re
-
Sol


||-------------------|
||-1---1-0---0---3---|
||---0-----0---2---0-|
||-------------0-----|
||-3-----2-----------|
||-----------------3-|

Escucha el tema: