Amárrame – Mon Laferte con Juanes

Título: Amárrame
Cantante: Mon Laferte, Juanes
Género: Cumbia, Rock español
Año: 2017
Álbum: La trenza

 Intro:
||-------------|
||-------------|
||-------------|
||-------------|
||-------------|
||-0-1-4-0-1-4-|

Ay, quiéreme de apoco
Pero que no me dé cuenta y que nadie sepa
Ven y cuídame
Pero que parezca que me estás haciendo daño
Amárrame

Fam
-
Sol#
Fam
-
Sol#

Ay, finge que no te gustó
Fam
Sol#
Fam
-
Sol#

Dame una mirada y luego vuélvete lejana
Fam
-
Sol#
Fam
-
Sol#

Y sin querer, búscame y déjame
Fam
Sol#
Fam
-
Sol#

Llámame pero no me hables, bésame y ahógame
Fam

Amárrame

Fam
Sol#
Re#
Fam

Cúrame, y enférmame de poco a poco a poco
Fam
Sol#
Re#
Fam

Cúrame, y transfórmame en un loco poco a poco
Amárrame

Fam
-
Sol#
Fam
-
Sol#

Ay, quiero ver tu perversión
Fam
Sol#
Fam
-
Sol#

Hasta donde llegas, hasta dónde me has llevado
Fam
-
Sol#
Fam
-
Sol#

Ignórame, ven y pierde la razón
Fam
Sol#
Fam
-
Sol#

Quiero que me ruegues y me mires a los ojos

Fam
-
Sol#
Fam
-
Sol#

Dame la espalda, desenfócame
Fam
Sol#
Fam
-
Sol#

Tómame del pelo y repíteme mi nombre
Fam
-
Sol#
Fam
-
Sol#

Y ámame pero sin querer
Fam
Sol#
Fam
-
Sol#

Deja que te lleve que mañana acaba todo
Fam

Amárrame


Fam
Sol#
Re#
Fam

Cúrame, y enférmame de poco a poco a poco
Fam
Sol#
Re#
Fam

Cúrame, y transfórmame en un loco poco a poco
Amárrame

Intro solo
||----------------11----------------11-|
||----11-12-11----------11-12-11-------|
||-13----------13----13----------13----|
||-------------------------------------|
||-------------------------------------|
||-------------------------------------|

||-13p11-------------------------------|
||-------11----11----11----11-13-------|
||----------13----13----13-------10-13-|
||-------------------------------------|
||-------------------------------------|
||-------------------------------------|

Solo
||------------------------------------------------------|
||-------8-9-9-9-9-9-9p8----------8-9-9-9-9-9-9p8-------|
||----10-----------------10----10-----------------10----|
||-10-----------------------10--------------------------|
||------------------------------------------------------|
||------------------------------------------------------|

||-----------------------------------------------------------------------|
||----------11-11-11-11-11-------11--------------------------------------|
||----12-13----------------13-12----13-12-13-12h13p12-10----8-10-10p8----|
||-13----------------------------------------------------10-----------10-|
||-----------------------------------------------------------------------|
||-----------------------------------------------------------------------|


Acompañamiento solo:
Fam
-
Sol#
-
Re#
-
Fam
(bis)
Fam
Sol#
Re#
Fam

Cúrame, y enférmame de poco a poco a poco
Fam
Sol#
Re#
Fam

Cúrame, y transfórmame en un loco poco a poco
Amárrame

||---------------------------|
||---------------------------|
||---------------------------|
||-3-3---6-3-3---6-3-3---6-3-|
||-----3-------3-------3-----|
||---------------------------|

Escucha el tema: