Algo de mi – Camilo Sesto

Título: Algo de mi
Cantante: Camilo Sesto
Género: Pop, Baladas
Año: 1972
Álbum: Algo de mi

 
 [ac c="Dom"]           [ac c="Fam"]
 Un adiós sin razones 
      [ac c="Sol7"]      [ac c="Dom"]
 Unos años sin valor … 
 Intro: [ac c="Dom"] - [ac c="Fam"] - [ac c="LaSOS"] - [ac c="ReSOS"] - [ac c="Dom"] - [ac c="Fam"] - [ac c="SolSOS"] - [ac c="Sol"]

 |--------------------------------------------------------------------|
 |---8-6-8-----------------------------------------6---8(16 veces)-8--|
 |---------5-7-7/8---------------------5-7-8-5-7-8---8----------------|
 |-5---------------6-6-5---8---5-----5--------------------------------|
 |-----------------------8---8---6-8----------------------------------|
 
      [ac c="Dom"]        [ac c="Fam"]
 Me acostumbré a tus besos 
         [ac c="LaSOS"]           [ac c="ReSOS"]
 y a tu piel color de miel 
        [ac c="Dom"]          [ac c="Fam"]
 a la espiga de tu cuerpo 
      [ac c="SolSOS"]         [ac c="Sol"]
 a tu risa y a tu ser.
             [ac c="Dom"]             [ac c="Fam"]
 Mi voz se quiebra cuando te llamo 
      [ac c="LaSOS"]              [ac c="ReSOS"]
 y tu nombre se vuelve hiedra 
          [ac c="Dom"]              [ac c="Fam"]
 que me abraza y entre sus ramas 
        [ac c="SolSOS"]         [ac c="Sol"]
 ella esconde mi tristeza.


 [ac c="Fam"]            [ac c="Sol"]
 Algo de mi, algo de mi,
 [ac c="Dom"]                 [ac c="Sol"]
 algo de mi se va muriendo.
   [ac c="Fam"]            [ac c="Sol"]
 Quiero vivir, quiero vivir, 
 [ac c="Dom"]                 [ac c="Sol"]
 saber por qué te vas amor.


 Te vas amor pero te quedas,
 porque formas parte de mi 
 y en mi casa y en mi alma 
 hay un sitio para ti.
 Se que mañana al despertarme 
 no hallaré a quien hallaba 
 y en su sitio habrá un vació 
 grande y duro como el alma.


 [ac c="Fam"]            [ac c="Sol"]
 Algo de mi, algo de mi,
 [ac c="Dom"]                 [ac c="Sol"]
 algo de mi se va muriendo.
   [ac c="Fam"]            [ac c="Sol"]
 Quiero vivir, quiero vivir 
 [ac c="Dom"]                 [ac c="Sol"]
 Saber por qué te vas amor.


 Te vas amor pero te quedas,
 porque formas parte de mi 
 y en mi casa y en mi alma 
 hay un sitio para ti. 

 [ac c="Dom"] - [ac c="Fam"] - [ac c="LaSOS"] - [ac c="ReSOS"] - [ac c="Dom"] - [ac c="Fam"] - [ac c="SolSOS"] - [ac c="Sol"]

 |--------------------------------------------------------------------|
 |---8-6-8-----------------------------------------6---8(16 veces)-8--|
 |---------5-7-7/8---------------------5-7-8-5-7-8---8----------------|
 |-5---------------6-6-5---8---5-----5--------------------------------|
 |-----------------------8---8---6-8----------------------------------|
 
  [ac c="Fam"]            [ac c="Sol"]
 Algo de mi, algo de mi,
 [ac c="Dom"]                 [ac c="Sol"]
 algo de mi se va muriendo.
   [ac c="Fam"]            [ac c="Sol"]
 Quiero vivir, quiero vivir 
 [ac c="Dom"]                 [ac c="Sol"]
 Saber por qué te vas amor. (bis)

Escucha el tema: