A dios le pido – Juanes

Título: A dios le pido
Cantante: Juanes
Género: Alternativa
Año: 2002
Álbum: Un día normal

Intro:

||-5--5-5-5--8-8-8--5-5-5--5-5------------------------------------|
||-5--5-5-5--5-5-5--5-5-5--5-5------------------------------------|
||-5--5-5-5--5-5-5--5-5-5--5-5----4-7-7p4---4-7-7p4---4-7-7p4-----|
||-7--7-7-7--7-7-7--7-7-7--7-7--6---------6---------6---------6-7-|
||----------------------------------------------------------------|
||----------------------------------------------------------------| (2 veces)

||-----------------------------------------------------|
||-----5---5-------5---5-------------------------------|
||---5---5---5---5---5---7-4-----4-7-7p4---4-7-7p4-----|
||-7-----------7-------------6-6---------6---------6-7-|
||-----------------------------------------------------|
||-----------------------------------------------------|

||-----------5-----5---5-4--------7-10-8-7----8-7---------|
||-----5---5---5-----5-----5----9----------10-----10-9-10-|
||---5---5-------5-----------/9---------------------------|
||-7------------------------------------------------------|
||--------------------------------------------------------|
||--------------------------------------------------------|


Lam

Que mis ojos se despierten
Mi

Con la luz de tu mirada yo
Lam

A Dios le pido
Rem

Que mi madre no se muera
Mi

Y que mi padre me recuerde
A Dios le pido
Lam
Rem

Que te quedes a mi lado
Mi

Y que mas nunca te me vayas mi vida
A Dios le pido
Lam
Rem

Que mi alma no descanse cuando
Mi

De amarte se trate mi cielo
A Dios le pido
Lam

Por los días que me quedan
Mi

Y las noches que aún no llegan yo
A Dios le pido
Lam
Rem

Por los hijos de mis hijos
Mi

Y los hijos de tus hijos
A Dios le pido
Lam
Rem

Que mi pueblo no derrame tanta sangre
Mi

Y se levante mi gente
A Dios le pido
Lam
Rem

Que mi alma no descanse cuando
Mi

De amarte se trate mi cielo
A Dios le pido

Lam
Mi/Sol#

Un segundo más de vida para darte
Sol
Re/Fa#

Y mi corazón entero entregarte
Lam
Mi/Sol#

Un segundo más de vida para darte
Sol
Re/Fa#

Y a tu lado para siempre yo quedarme
Fa
Mi

Un segundo más de vida yo


Do

A Dios le pido
Sol

Y que si me muero sea de amor
Mi
Lam

Y si me enamoro sea de vos
Sol

Y que de tu voz sea este corazón
Do

Todos los días a Dios le pido
Sol

Y que si me muero sea de amor
Mi
Lam

Y si me enamoro sea de vos
Sol

Y que de tu voz sea este corazón
Lam

Todos los días a Dios le pido


||-5--5-5-5--8-8-8--5-5-5--5-5------------------------------------|
||-5--5-5-5--5-5-5--5-5-5--5-5------------------------------------|
||-5--5-5-5--5-5-5--5-5-5--5-5----4-7-7p4---4-7-7p4---4-7-7p4-----|
||-7--7-7-7--7-7-7--7-7-7--7-7--6---------6---------6---------6-7-|
||----------------------------------------------------------------|
||----------------------------------------------------------------| (2 veces)

||-----------------------------------------------------|
||-----5---5-------5---5-------------------------------|
||---5---5---5---5---5---7-4-----4-7-7p4---4-7-7p4-----|
||-7-----------7-------------6-6---------6---------6-7-|
||-----------------------------------------------------|
||-----------------------------------------------------|

||-----------5-----5---5-4--------7-10-8-7----8-7---------|
||-----5---5---5-----5-----5----9----------10-----10-9-10-|
||---5---5-------5-----------/9---------------------------|
||-7------------------------------------------------------|
||--------------------------------------------------------|
||--------------------------------------------------------|


Lam

Que mis ojos se despierten
Mi

Con la luz de tu mirada yo
Lam

A Dios le pido
Rem

Que mi madre no se muera
Mi

Y que mi padre me recuerde
A Dios le pido
Lam
Rem

Que te quedes a mi lado
Mi

Y que mas nunca te me vayas mi vida
A Dios le pido
Lam
Rem

Que mi alma no descanse cuando
Mi

De amarte se trate mi cielo
A Dios le pido

Lam
Mi/Sol#

Un segundo más de vida para darte
Sol
Re/Fa#

Y mi corazón entero entregarte
Lam
Mi/Sol#

Un segundo más de vida para darte
Sol
Re/Fa#

Y a tu lado para siempre yo quedarme
Fa
Mi

Un segundo más de vida yo


Do

A Dios le pido
Sol

Y que si me muero sea de amor
Mi
Lam

Y si me enamoro sea de vos
Sol

Y que de tu voz sea este corazón
Do

Todos los días a Dios le pido
Sol

Y que si me muero sea de amor
Mi
Lam

Y si me enamoro sea de vos
Sol

Y que de tu voz sea este corazón
Do

Todos los días a Dios le pido
Sol

Y que si me muero sea de amor
Mi
Lam

Y si me enamoro sea de vos
Sol

Y que de tu voz sea este corazón
Do

Todos los días a Dios le pido
Sol

Y que si me muero sea de amor
Mi
Lam

Y si me enamoro sea de vos
Sol

Y que de tu voz sea este corazón
Mi
Lam

Todos los días yo a Dios le pido

Escucha el tema: